ISO-10303-21;
HEADER;
FILE_DESCRIPTION (( 'STEP AP203' ),
    '1' );
FILE_NAME ('Q-DWWP-R41-20-1064-SH-M.STEP',
    '2020-12-22T08:54:10',
    ( '' ),
    ( '' ),
    'SwSTEP 2.0',
    'SolidWorks 2020',
    '' );
FILE_SCHEMA (( 'CONFIG_CONTROL_DESIGN' ));
ENDSEC;

DATA;
#1 = AXIS2_PLACEMENT_3D ( 'NONE', #224, #104, #161 ) ;
#2 = CARTESIAN_POINT ( 'NONE',  ( 0.5000000000000004441, 0.000000000000000000, 3.000000000000000000 ) ) ;
#3 = APPROVAL ( #128, 'UNSPECIFIED' ) ;
#4 = VERTEX_POINT ( 'NONE', #19 ) ;
#5 = DIRECTION ( 'NONE',  ( 1.000000000000000000, 0.000000000000000000, 0.000000000000000000 ) ) ;
#6 = COORDINATED_UNIVERSAL_TIME_OFFSET ( 8, 0, .AHEAD. ) ;
#7 = COORDINATED_UNIVERSAL_TIME_OFFSET ( 8, 0, .AHEAD. ) ;
#8 = EDGE_LOOP ( 'NONE', ( #301, #40, #18, #110 ) ) ;
#9 = EDGE_LOOP ( 'NONE', ( #88, #66, #274, #254 ) ) ;
#10 = LINE ( 'NONE', #159, #86 ) ;
#11 = CARTESIAN_POINT ( 'NONE',  ( -0.5000000000000002220, 0.000000000000000000, 3.000000000000000000 ) ) ;
#12 = CIRCLE ( 'NONE', #58, 3.000000000000000000 ) ;
#13 = ORIENTED_EDGE ( 'NONE', *, *, #93, .T. ) ;
#14 = AXIS2_PLACEMENT_3D ( 'NONE', #287, #50, #259 ) ;
#15 = DIRECTION ( 'NONE',  ( 0.000000000000000000, 0.000000000000000000, 1.000000000000000000 ) ) ;
#16 = AXIS2_PLACEMENT_3D ( 'NONE', #142, #139, #15 ) ;
#17 = ADVANCED_FACE ( 'NONE', ( #116 ), #47, .T. ) ;
#18 = ORIENTED_EDGE ( 'NONE', *, *, #281, .F. ) ;
#19 = CARTESIAN_POINT ( 'NONE',  ( -1.500000000000000000, 6.123233995736766282E-16, -5.000000000000000000 ) ) ;
#20 = AXIS2_PLACEMENT_3D ( 'NONE', #30, #38, #270 ) ;
#21 = DIRECTION ( 'NONE',  ( -1.000000000000000000, -0.000000000000000000, -0.000000000000000000 ) ) ;
#22 = DIRECTION ( 'NONE',  ( 0.000000000000000000, 0.000000000000000000, 1.000000000000000000 ) ) ;
#23 = DIRECTION ( 'NONE',  ( -1.000000000000000000, -0.000000000000000000, -0.000000000000000000 ) ) ;
#24 = DIRECTION ( 'NONE',  ( -1.000000000000000000, -0.000000000000000000, -0.000000000000000000 ) ) ;
#25 = DIRECTION ( 'NONE',  ( -1.000000000000000000, -0.000000000000000000, -0.000000000000000000 ) ) ;
#26 = CIRCLE ( 'NONE', #335, 3.000000000000000000 ) ;
#27 = DIRECTION ( 'NONE',  ( 0.000000000000000000, 0.000000000000000000, 1.000000000000000000 ) ) ;
#28 = SHAPE_DEFINITION_REPRESENTATION ( #186, #69 ) ;
#29 = FACE_OUTER_BOUND ( 'NONE', #190, .T. ) ;
#30 = CARTESIAN_POINT ( 'NONE',  ( 0.000000000000000000, 0.000000000000000000, 0.000000000000000000 ) ) ;
#31 = AXIS2_PLACEMENT_3D ( 'NONE', #227, #118, #132 ) ;
#32 = CARTESIAN_POINT ( 'NONE',  ( -0.5000000000000002220, 0.000000000000000000, 0.000000000000000000 ) ) ;
#33 = PERSON_AND_ORGANIZATION_ROLE ( 'design_supplier' ) ;
#34 = ORIENTED_EDGE ( 'NONE', *, *, #295, .F. ) ;
#35 = CYLINDRICAL_SURFACE ( 'NONE', #1, 3.000000000000000000 ) ;
#36 = VERTEX_POINT ( 'NONE', #11 ) ;
#37 = ORIENTED_EDGE ( 'NONE', *, *, #281, .T. ) ;
#38 = DIRECTION ( 'NONE',  ( 0.000000000000000000, 0.000000000000000000, 1.000000000000000000 ) ) ;
#39 = ADVANCED_FACE ( 'NONE', ( #112 ), #280, .T. ) ;
#40 = ORIENTED_EDGE ( 'NONE', *, *, #215, .T. ) ;
#41 = CLOSED_SHELL ( 'NONE', ( #17, #333, #55, #43, #163, #285, #160, #39, #62, #313 ) ) ;
#42 = ORIENTED_EDGE ( 'NONE', *, *, #218, .T. ) ;
#43 = ADVANCED_FACE ( 'NONE', ( #143 ), #244, .F. ) ;
#44 = EDGE_CURVE ( 'NONE', #4, #225, #82, .T. ) ;
#45 = ORIENTED_EDGE ( 'NONE', *, *, #255, .T. ) ;
#46 = APPROVAL_PERSON_ORGANIZATION ( #293, #107, #267 ) ;
#47 = CYLINDRICAL_SURFACE ( 'NONE', #16, 5.000000000000000000 ) ;
#48 = CIRCLE ( 'NONE', #31, 3.000000000000000000 ) ;
#49 = DIRECTION ( 'NONE',  ( 0.000000000000000000, 0.000000000000000000, 1.000000000000000000 ) ) ;
#50 = DIRECTION ( 'NONE',  ( -1.000000000000000000, -0.000000000000000000, -0.000000000000000000 ) ) ;
#51 = APPROVAL_ROLE ( '' ) ;
#52 = CARTESIAN_POINT ( 'NONE',  ( -1.614212418857619014, 3.673940397442059868E-16, -3.000000000000000000 ) ) ;
#53 = DIRECTION ( 'NONE',  ( 0.000000000000000000, 0.000000000000000000, 1.000000000000000000 ) ) ;
#54 = AXIS2_PLACEMENT_3D ( 'NONE', #308, #256, #329 ) ;
#55 = ADVANCED_FACE ( 'NONE', ( #268 ), #35, .F. ) ;
#56 = CALENDAR_DATE ( 2020, 22, 12 ) ;
#57 = DIRECTION ( 'NONE',  ( -1.000000000000000000, -0.000000000000000000, -0.000000000000000000 ) ) ;
#58 = AXIS2_PLACEMENT_3D ( 'NONE', #120, #23, #49 ) ;
#59 = CALENDAR_DATE ( 2020, 22, 12 ) ;
#60 = CARTESIAN_POINT ( 'NONE',  ( 0.5000000000000002220, 3.000000000000000000, 0.000000000000000000 ) ) ;
#61 = ORIENTED_EDGE ( 'NONE', *, *, #182, .T. ) ;
#62 = ADVANCED_FACE ( 'NONE', ( #133, #220 ), #275, .F. ) ;
#63 = DIRECTION ( 'NONE',  ( 0.000000000000000000, 0.000000000000000000, 1.000000000000000000 ) ) ;
#64 = APPROVAL_DATE_TIME ( #263, #3 ) ;
#65 = ORIENTED_EDGE ( 'NONE', *, *, #182, .F. ) ;
#66 = ORIENTED_EDGE ( 'NONE', *, *, #328, .T. ) ;
#67 = ORIENTED_EDGE ( 'NONE', *, *, #115, .F. ) ;
#68 = CC_DESIGN_DATE_AND_TIME_ASSIGNMENT ( #234, #226, ( #99 ) ) ;
#69 = ADVANCED_BREP_SHAPE_REPRESENTATION ( 'Q-DWWP-R41-20-1064-SH-M', ( #304, #20 ), #179 ) ;
#70 = DIRECTION ( 'NONE',  ( 0.000000000000000000, 0.000000000000000000, 1.000000000000000000 ) ) ;
#71 = CC_DESIGN_APPROVAL ( #83, ( #99 ) ) ;
#72 = FACE_OUTER_BOUND ( 'NONE', #177, .T. ) ;
#73 = CARTESIAN_POINT ( 'NONE',  ( 1.500000000000000000, 0.000000000000000000, 0.000000000000000000 ) ) ;
#74 = CC_DESIGN_PERSON_AND_ORGANIZATION_ASSIGNMENT ( #249, #33, ( #130 ) ) ;
#75 = LINE ( 'NONE', #52, #87 ) ;
#76 = DIRECTION ( 'NONE',  ( -1.000000000000000000, -0.000000000000000000, -0.000000000000000000 ) ) ;
#77 = PERSON_AND_ORGANIZATION ( #168, #90 ) ;
#78 = PLANE ( 'NONE',  #282 ) ;
#79 = DIRECTION ( 'NONE',  ( -1.000000000000000000, -0.000000000000000000, -0.000000000000000000 ) ) ;
#80 = CARTESIAN_POINT ( 'NONE',  ( -0.5000000000000002220, 3.000000000000000000, 0.000000000000000000 ) ) ;
#81 = AXIS2_PLACEMENT_3D ( 'NONE', #32, #5, #171 ) ;
#82 = CIRCLE ( 'NONE', #205, 5.000000000000000000 ) ;
#83 = APPROVAL ( #288, 'UNSPECIFIED' ) ;
#84 = PERSON_AND_ORGANIZATION ( #168, #90 ) ;
#85 = VERTEX_POINT ( 'NONE', #98 ) ;
#86 = VECTOR ( 'NONE', #100, 1000.000000000000000 ) ;
#87 = VECTOR ( 'NONE', #21, 1000.000000000000000 ) ;
#88 = ORIENTED_EDGE ( 'NONE', *, *, #235, .F. ) ;
#89 = LOCAL_TIME ( 16, 54, 10.00000000000000000, #241 ) ;
#90 = ORGANIZATION ( 'UNSPECIFIED', 'UNSPECIFIED', '' ) ;
#91 = EDGE_LOOP ( 'NONE', ( #158, #111, #42, #131 ) ) ;
#92 = EDGE_CURVE ( 'NONE', #277, #251, #291, .T. ) ;
#93 = EDGE_CURVE ( 'NONE', #184, #162, #141, .T. ) ;
#94 = CARTESIAN_POINT ( 'NONE',  ( -1.614212418857619014, 0.000000000000000000, 0.000000000000000000 ) ) ;
#95 = VECTOR ( 'NONE', #331, 1000.000000000000000 ) ;
#96 = AXIS2_PLACEMENT_3D ( 'NONE', #94, #79, #152 ) ;
#97 = LINE ( 'NONE', #201, #164 ) ;
#98 = CARTESIAN_POINT ( 'NONE',  ( 1.500000000000000444, 0.000000000000000000, 3.000000000000000000 ) ) ;
#99 = SECURITY_CLASSIFICATION ( '', '', #126 ) ;
#100 = DIRECTION ( 'NONE',  ( -1.000000000000000000, -0.000000000000000000, -0.000000000000000000 ) ) ;
#101 = CARTESIAN_POINT ( 'NONE',  ( -1.500000000000000000, 0.000000000000000000, 5.000000000000000000 ) ) ;
#102 =( NAMED_UNIT ( * ) PLANE_ANGLE_UNIT ( ) SI_UNIT ( $, .RADIAN. ) );
#103 = EDGE_CURVE ( 'NONE', #36, #134, #330, .T. ) ;
#104 = DIRECTION ( 'NONE',  ( -1.000000000000000000, -0.000000000000000000, -0.000000000000000000 ) ) ;
#105 = ORIENTED_EDGE ( 'NONE', *, *, #235, .T. ) ;
#106 = CARTESIAN_POINT ( 'NONE',  ( -1.614212418857619014, 0.000000000000000000, 0.000000000000000000 ) ) ;
#107 = APPROVAL ( #174, 'UNSPECIFIED' ) ;
#108 = PERSON_AND_ORGANIZATION_ROLE ( 'creator' ) ;
#109 = CALENDAR_DATE ( 2020, 22, 12 ) ;
#110 = ORIENTED_EDGE ( 'NONE', *, *, #218, .F. ) ;
#111 = ORIENTED_EDGE ( 'NONE', *, *, #92, .T. ) ;
#112 = FACE_OUTER_BOUND ( 'NONE', #91, .T. ) ;
#113 = EDGE_LOOP ( 'NONE', ( #34, #247 ) ) ;
#114 = CARTESIAN_POINT ( 'NONE',  ( -1.614212418857619014, 0.000000000000000000, 0.000000000000000000 ) ) ;
#115 = EDGE_CURVE ( 'NONE', #251, #277, #123, .T. ) ;
#116 = FACE_OUTER_BOUND ( 'NONE', #8, .T. ) ;
#117 = PRODUCT_RELATED_PRODUCT_CATEGORY ( 'detail', '', ( #312 ) ) ;
#118 = DIRECTION ( 'NONE',  ( -1.000000000000000000, -0.000000000000000000, -0.000000000000000000 ) ) ;
#119 = DIRECTION ( 'NONE',  ( -1.000000000000000000, -0.000000000000000000, -0.000000000000000000 ) ) ;
#120 = CARTESIAN_POINT ( 'NONE',  ( 1.500000000000000444, 0.000000000000000000, 0.000000000000000000 ) ) ;
#121 = CC_DESIGN_APPROVAL ( #107, ( #236 ) ) ;
#122 = COORDINATED_UNIVERSAL_TIME_OFFSET ( 8, 0, .AHEAD. ) ;
#123 = CIRCLE ( 'NONE', #165, 5.000000000000000000 ) ;
#124 = DATE_AND_TIME ( #229, #196 ) ;
#125 = CC_DESIGN_PERSON_AND_ORGANIZATION_ASSIGNMENT ( #245, #207, ( #312 ) ) ;
#126 = SECURITY_CLASSIFICATION_LEVEL ( 'unclassified' ) ;
#127 = CARTESIAN_POINT ( 'NONE',  ( -0.5000000000000002220, 0.000000000000000000, 0.000000000000000000 ) ) ;
#128 = APPROVAL_STATUS ( 'not_yet_approved' ) ;
#129 = APPROVAL_PERSON_ORGANIZATION ( #202, #83, #51 ) ;
#130 = PRODUCT_DEFINITION_FORMATION_WITH_SPECIFIED_SOURCE ( 'ANY', '', #312, .NOT_KNOWN. ) ;
#131 = ORIENTED_EDGE ( 'NONE', *, *, #44, .F. ) ;
#132 = DIRECTION ( 'NONE',  ( 0.000000000000000000, 0.000000000000000000, 1.000000000000000000 ) ) ;
#133 = FACE_OUTER_BOUND ( 'NONE', #324, .T. ) ;
#134 = VERTEX_POINT ( 'NONE', #286 ) ;
#135 =( LENGTH_UNIT ( ) NAMED_UNIT ( * ) SI_UNIT ( .MILLI., .METRE. ) );
#136 = EDGE_LOOP ( 'NONE', ( #45, #137 ) ) ;
#137 = ORIENTED_EDGE ( 'NONE', *, *, #173, .T. ) ;
#138 = EDGE_LOOP ( 'NONE', ( #65, #269, #248, #13 ) ) ;
#139 = DIRECTION ( 'NONE',  ( -1.000000000000000000, -0.000000000000000000, -0.000000000000000000 ) ) ;
#140 = DIRECTION ( 'NONE',  ( 1.000000000000000000, 0.000000000000000000, 0.000000000000000000 ) ) ;
#141 = CIRCLE ( 'NONE', #332, 3.000000000000000000 ) ;
#142 = CARTESIAN_POINT ( 'NONE',  ( -1.614212418857619014, 0.000000000000000000, 0.000000000000000000 ) ) ;
#143 = FACE_OUTER_BOUND ( 'NONE', #157, .T. ) ;
#144 = CARTESIAN_POINT ( 'NONE',  ( -1.614212418857619014, 6.123233995736766282E-16, -5.000000000000000000 ) ) ;
#145 = CARTESIAN_POINT ( 'NONE',  ( -0.5000000000000002220, 3.673940397442059868E-16, -3.000000000000000000 ) ) ;
#146 = DIRECTION ( 'NONE',  ( -1.000000000000000000, 0.000000000000000000, -0.000000000000000000 ) ) ;
#147 = CARTESIAN_POINT ( 'NONE',  ( 1.500000000000000000, 6.123233995736766282E-16, -5.000000000000000000 ) ) ;
#148 = EDGE_CURVE ( 'NONE', #187, #134, #26, .T. ) ;
#149 = EDGE_CURVE ( 'NONE', #162, #184, #238, .T. ) ;
#150 = APPROVAL_DATE_TIME ( #213, #107 ) ;
#151 = AXIS2_PLACEMENT_3D ( 'NONE', #325, #223, #252 ) ;
#152 = DIRECTION ( 'NONE',  ( 0.000000000000000000, 0.000000000000000000, 1.000000000000000000 ) ) ;
#153 = PERSON_AND_ORGANIZATION_ROLE ( 'creator' ) ;
#154 = VERTEX_POINT ( 'NONE', #300 ) ;
#155 = AXIS2_PLACEMENT_3D ( 'NONE', #296, #25, #70 ) ;
#156 = EDGE_CURVE ( 'NONE', #85, #184, #10, .T. ) ;
#157 = EDGE_LOOP ( 'NONE', ( #216, #222 ) ) ;
#158 = ORIENTED_EDGE ( 'NONE', *, *, #215, .F. ) ;
#159 = CARTESIAN_POINT ( 'NONE',  ( -1.614212418857619014, 0.000000000000000000, 3.000000000000000000 ) ) ;
#160 = ADVANCED_FACE ( 'NONE', ( #262, #29 ), #78, .F. ) ;
#161 = DIRECTION ( 'NONE',  ( 0.000000000000000000, 0.000000000000000000, 1.000000000000000000 ) ) ;
#162 = VERTEX_POINT ( 'NONE', #194 ) ;
#163 = ADVANCED_FACE ( 'NONE', ( #292 ), #319, .F. ) ;
#164 = VECTOR ( 'NONE', #310, 1000.000000000000000 ) ;
#165 = AXIS2_PLACEMENT_3D ( 'NONE', #200, #76, #169 ) ;
#166 = DIRECTION ( 'NONE',  ( 1.000000000000000000, 0.000000000000000000, 0.000000000000000000 ) ) ;
#167 = APPROVAL_PERSON_ORGANIZATION ( #84, #3, #297 ) ;
#168 = PERSON ( 'UNSPECIFIED', 'UNSPECIFIED', 'UNSPECIFIED', ('UNSPECIFIED'), ('UNSPECIFIED'), ('UNSPECIFIED') ) ;
#169 = DIRECTION ( 'NONE',  ( 0.000000000000000000, 0.000000000000000000, 1.000000000000000000 ) ) ;
#170 = CYLINDRICAL_SURFACE ( 'NONE', #14, 3.000000000000000000 ) ;
#171 = DIRECTION ( 'NONE',  ( 0.000000000000000000, 0.000000000000000000, -1.000000000000000000 ) ) ;
#172 = DIRECTION ( 'NONE',  ( -1.000000000000000000, -0.000000000000000000, -0.000000000000000000 ) ) ;
#173 = EDGE_CURVE ( 'NONE', #154, #85, #12, .T. ) ;
#174 = APPROVAL_STATUS ( 'not_yet_approved' ) ;
#175 = CYLINDRICAL_SURFACE ( 'NONE', #96, 3.000000000000000000 ) ;
#176 = APPLICATION_PROTOCOL_DEFINITION ( 'international standard', 'config_control_design', 1994, #276 ) ;
#177 = EDGE_LOOP ( 'NONE', ( #185, #105, #214, #217 ) ) ;
#178 = PLANE ( 'NONE',  #232 ) ;
#179 =( GEOMETRIC_REPRESENTATION_CONTEXT ( 3 ) GLOBAL_UNCERTAINTY_ASSIGNED_CONTEXT ( ( #299 ) ) GLOBAL_UNIT_ASSIGNED_CONTEXT ( ( #135, #102, #315 ) ) REPRESENTATION_CONTEXT ( 'NONE', 'WORKASPACE' ) );
#180 = DATE_TIME_ROLE ( 'creation_date' ) ;
#181 = VECTOR ( 'NONE', #24, 1000.000000000000000 ) ;
#182 = EDGE_CURVE ( 'NONE', #154, #162, #240, .T. ) ;
#183 = COORDINATED_UNIVERSAL_TIME_OFFSET ( 8, 0, .AHEAD. ) ;
#184 = VERTEX_POINT ( 'NONE', #2 ) ;
#185 = ORIENTED_EDGE ( 'NONE', *, *, #295, .T. ) ;
#186 = PRODUCT_DEFINITION_SHAPE ( 'NONE', 'NONE',  #236 ) ;
#187 = VERTEX_POINT ( 'NONE', #289 ) ;
#188 = AXIS2_PLACEMENT_3D ( 'NONE', #326, #146, #231 ) ;
#189 = ORIENTED_EDGE ( 'NONE', *, *, #156, .F. ) ;
#190 = EDGE_LOOP ( 'NONE', ( #37, #271 ) ) ;
#191 = DIRECTION ( 'NONE',  ( -1.000000000000000000, 0.000000000000000000, -0.000000000000000000 ) ) ;
#192 = CC_DESIGN_DATE_AND_TIME_ASSIGNMENT ( #209, #180, ( #236 ) ) ;
#193 = DIRECTION ( 'NONE',  ( -1.000000000000000000, -0.000000000000000000, -0.000000000000000000 ) ) ;
#194 = CARTESIAN_POINT ( 'NONE',  ( 0.5000000000000004441, 3.673940397442059868E-16, -3.000000000000000000 ) ) ;
#195 = APPLICATION_CONTEXT ( 'configuration controlled 3d designs of mechanical parts and assemblies' ) ;
#196 = LOCAL_TIME ( 16, 54, 10.00000000000000000, #122 ) ;
#197 = CC_DESIGN_APPROVAL ( #3, ( #130 ) ) ;
#198 = AXIS2_PLACEMENT_3D ( 'NONE', #106, #283, #208 ) ;
#199 = DIRECTION ( 'NONE',  ( 0.000000000000000000, 0.000000000000000000, -1.000000000000000000 ) ) ;
#200 = CARTESIAN_POINT ( 'NONE',  ( 1.500000000000000000, 0.000000000000000000, 0.000000000000000000 ) ) ;
#201 = CARTESIAN_POINT ( 'NONE',  ( -1.614212418857619014, 0.000000000000000000, 5.000000000000000000 ) ) ;
#202 = PERSON_AND_ORGANIZATION ( #168, #90 ) ;
#203 = CARTESIAN_POINT ( 'NONE',  ( -1.614212418857619014, 0.000000000000000000, 3.000000000000000000 ) ) ;
#204 = PERSON_AND_ORGANIZATION ( #168, #90 ) ;
#205 = AXIS2_PLACEMENT_3D ( 'NONE', #298, #302, #63 ) ;
#206 = CARTESIAN_POINT ( 'NONE',  ( 1.500000000000000000, 0.000000000000000000, 5.000000000000000000 ) ) ;
#207 = PERSON_AND_ORGANIZATION_ROLE ( 'design_owner' ) ;
#208 = DIRECTION ( 'NONE',  ( 0.000000000000000000, 0.000000000000000000, 1.000000000000000000 ) ) ;
#209 = DATE_AND_TIME ( #318, #284 ) ;
#210 = DIRECTION ( 'NONE',  ( -0.000000000000000000, 0.000000000000000000, 1.000000000000000000 ) ) ;
#211 = VERTEX_POINT ( 'NONE', #145 ) ;
#212 = CIRCLE ( 'NONE', #155, 3.000000000000000000 ) ;
#213 = DATE_AND_TIME ( #56, #221 ) ;
#214 = ORIENTED_EDGE ( 'NONE', *, *, #148, .T. ) ;
#215 = EDGE_CURVE ( 'NONE', #277, #4, #230, .T. ) ;
#216 = ORIENTED_EDGE ( 'NONE', *, *, #93, .F. ) ;
#217 = ORIENTED_EDGE ( 'NONE', *, *, #103, .F. ) ;
#218 = EDGE_CURVE ( 'NONE', #251, #225, #97, .T. ) ;
#219 = DESIGN_CONTEXT ( 'detailed design', #276, 'design' ) ;
#220 = FACE_BOUND ( 'NONE', #136, .T. ) ;
#221 = LOCAL_TIME ( 16, 54, 10.00000000000000000, #7 ) ;
#222 = ORIENTED_EDGE ( 'NONE', *, *, #149, .F. ) ;
#223 = DIRECTION ( 'NONE',  ( -1.000000000000000000, -0.000000000000000000, -0.000000000000000000 ) ) ;
#224 = CARTESIAN_POINT ( 'NONE',  ( -1.614212418857619014, 0.000000000000000000, 0.000000000000000000 ) ) ;
#225 = VERTEX_POINT ( 'NONE', #101 ) ;
#226 = DATE_TIME_ROLE ( 'classification_date' ) ;
#227 = CARTESIAN_POINT ( 'NONE',  ( 1.500000000000000444, 0.000000000000000000, 0.000000000000000000 ) ) ;
#228 = CARTESIAN_POINT ( 'NONE',  ( 0.5000000000000004441, 0.000000000000000000, 0.000000000000000000 ) ) ;
#229 = CALENDAR_DATE ( 2020, 22, 12 ) ;
#230 = LINE ( 'NONE', #144, #95 ) ;
#231 = DIRECTION ( 'NONE',  ( -0.000000000000000000, 0.000000000000000000, 1.000000000000000000 ) ) ;
#232 = AXIS2_PLACEMENT_3D ( 'NONE', #80, #307, #260 ) ;
#233 = CC_DESIGN_SECURITY_CLASSIFICATION ( #99, ( #130 ) ) ;
#234 = DATE_AND_TIME ( #59, #89 ) ;
#235 = EDGE_CURVE ( 'NONE', #211, #187, #75, .T. ) ;
#236 = PRODUCT_DEFINITION ( 'UNKNOWN', '', #130, #219 ) ;
#237 = PERSON_AND_ORGANIZATION ( #168, #90 ) ;
#238 = CIRCLE ( 'NONE', #151, 3.000000000000000000 ) ;
#239 = CIRCLE ( 'NONE', #54, 5.000000000000000000 ) ;
#240 = LINE ( 'NONE', #266, #320 ) ;
#241 = COORDINATED_UNIVERSAL_TIME_OFFSET ( 8, 0, .AHEAD. ) ;
#242 = FACE_OUTER_BOUND ( 'NONE', #113, .T. ) ;
#243 = APPLICATION_PROTOCOL_DEFINITION ( 'international standard', 'config_control_design', 1994, #195 ) ;
#244 = PLANE ( 'NONE',  #314 ) ;
#245 = PERSON_AND_ORGANIZATION ( #168, #90 ) ;
#246 = CC_DESIGN_PERSON_AND_ORGANIZATION_ASSIGNMENT ( #237, #334, ( #99 ) ) ;
#247 = ORIENTED_EDGE ( 'NONE', *, *, #328, .F. ) ;
#248 = ORIENTED_EDGE ( 'NONE', *, *, #156, .T. ) ;
#249 = PERSON_AND_ORGANIZATION ( #168, #90 ) ;
#250 = EDGE_LOOP ( 'NONE', ( #273, #61, #306, #189 ) ) ;
#251 = VERTEX_POINT ( 'NONE', #206 ) ;
#252 = DIRECTION ( 'NONE',  ( 0.000000000000000000, 0.000000000000000000, 1.000000000000000000 ) ) ;
#253 = AXIS2_PLACEMENT_3D ( 'NONE', #73, #311, #22 ) ;
#254 = ORIENTED_EDGE ( 'NONE', *, *, #316, .T. ) ;
#255 = EDGE_CURVE ( 'NONE', #85, #154, #48, .T. ) ;
#256 = DIRECTION ( 'NONE',  ( -1.000000000000000000, -0.000000000000000000, -0.000000000000000000 ) ) ;
#257 = CC_DESIGN_PERSON_AND_ORGANIZATION_ASSIGNMENT ( #204, #108, ( #236 ) ) ;
#258 = CARTESIAN_POINT ( 'NONE',  ( -1.500000000000000000, 0.000000000000000000, 0.000000000000000000 ) ) ;
#259 = DIRECTION ( 'NONE',  ( 0.000000000000000000, 0.000000000000000000, 1.000000000000000000 ) ) ;
#260 = DIRECTION ( 'NONE',  ( 0.000000000000000000, 0.000000000000000000, -1.000000000000000000 ) ) ;
#261 = APPROVAL_DATE_TIME ( #124, #83 ) ;
#262 = FACE_BOUND ( 'NONE', #323, .T. ) ;
#263 = DATE_AND_TIME ( #109, #265 ) ;
#264 = ORIENTED_EDGE ( 'NONE', *, *, #316, .F. ) ;
#265 = LOCAL_TIME ( 16, 54, 10.00000000000000000, #183 ) ;
#266 = CARTESIAN_POINT ( 'NONE',  ( -1.614212418857619014, 3.673940397442059868E-16, -3.000000000000000000 ) ) ;
#267 = APPROVAL_ROLE ( '' ) ;
#268 = FACE_OUTER_BOUND ( 'NONE', #250, .T. ) ;
#269 = ORIENTED_EDGE ( 'NONE', *, *, #255, .F. ) ;
#270 = DIRECTION ( 'NONE',  ( 1.000000000000000000, 0.000000000000000000, 0.000000000000000000 ) ) ;
#271 = ORIENTED_EDGE ( 'NONE', *, *, #44, .T. ) ;
#272 = AXIS2_PLACEMENT_3D ( 'NONE', #114, #193, #27 ) ;
#273 = ORIENTED_EDGE ( 'NONE', *, *, #173, .F. ) ;
#274 = ORIENTED_EDGE ( 'NONE', *, *, #103, .T. ) ;
#275 = PLANE ( 'NONE',  #188 ) ;
#276 = APPLICATION_CONTEXT ( 'configuration controlled 3d designs of mechanical parts and assemblies' ) ;
#277 = VERTEX_POINT ( 'NONE', #147 ) ;
#278 = DIRECTION ( 'NONE',  ( 0.000000000000000000, 0.000000000000000000, 1.000000000000000000 ) ) ;
#279 = CARTESIAN_POINT ( 'NONE',  ( -1.500000000000000000, 3.000000000000000000, 0.000000000000000000 ) ) ;
#280 = CYLINDRICAL_SURFACE ( 'NONE', #272, 5.000000000000000000 ) ;
#281 = EDGE_CURVE ( 'NONE', #225, #4, #239, .T. ) ;
#282 = AXIS2_PLACEMENT_3D ( 'NONE', #279, #140, #327 ) ;
#283 = DIRECTION ( 'NONE',  ( -1.000000000000000000, -0.000000000000000000, -0.000000000000000000 ) ) ;
#284 = LOCAL_TIME ( 16, 54, 10.00000000000000000, #6 ) ;
#285 = ADVANCED_FACE ( 'NONE', ( #317 ), #175, .F. ) ;
#286 = CARTESIAN_POINT ( 'NONE',  ( -1.500000000000000000, 0.000000000000000000, 3.000000000000000000 ) ) ;
#287 = CARTESIAN_POINT ( 'NONE',  ( -1.614212418857619014, 0.000000000000000000, 0.000000000000000000 ) ) ;
#288 = APPROVAL_STATUS ( 'not_yet_approved' ) ;
#289 = CARTESIAN_POINT ( 'NONE',  ( -1.500000000000000000, 3.673940397442059868E-16, -3.000000000000000000 ) ) ;
#290 = CIRCLE ( 'NONE', #81, 3.000000000000000000 ) ;
#291 = CIRCLE ( 'NONE', #253, 5.000000000000000000 ) ;
#292 = FACE_OUTER_BOUND ( 'NONE', #138, .T. ) ;
#293 = PERSON_AND_ORGANIZATION ( #168, #90 ) ;
#294 = CIRCLE ( 'NONE', #309, 3.000000000000000000 ) ;
#295 = EDGE_CURVE ( 'NONE', #36, #211, #290, .T. ) ;
#296 = CARTESIAN_POINT ( 'NONE',  ( -1.500000000000000000, 0.000000000000000000, 0.000000000000000000 ) ) ;
#297 = APPROVAL_ROLE ( '' ) ;
#298 = CARTESIAN_POINT ( 'NONE',  ( -1.500000000000000000, 0.000000000000000000, 0.000000000000000000 ) ) ;
#299 = UNCERTAINTY_MEASURE_WITH_UNIT (LENGTH_MEASURE( 1.000000000000000082E-05 ), #135, 'distance_accuracy_value', 'NONE');
#300 = CARTESIAN_POINT ( 'NONE',  ( 1.500000000000000444, 3.673940397442059868E-16, -3.000000000000000000 ) ) ;
#301 = ORIENTED_EDGE ( 'NONE', *, *, #115, .T. ) ;
#302 = DIRECTION ( 'NONE',  ( -1.000000000000000000, -0.000000000000000000, -0.000000000000000000 ) ) ;
#303 = CC_DESIGN_PERSON_AND_ORGANIZATION_ASSIGNMENT ( #77, #153, ( #130 ) ) ;
#304 = MANIFOLD_SOLID_BREP ( 'Ðý×', #41 ) ;
#305 = ORIENTED_EDGE ( 'NONE', *, *, #92, .F. ) ;
#306 = ORIENTED_EDGE ( 'NONE', *, *, #149, .T. ) ;
#307 = DIRECTION ( 'NONE',  ( 1.000000000000000000, 0.000000000000000000, 0.000000000000000000 ) ) ;
#308 = CARTESIAN_POINT ( 'NONE',  ( -1.500000000000000000, 0.000000000000000000, 0.000000000000000000 ) ) ;
#309 = AXIS2_PLACEMENT_3D ( 'NONE', #127, #166, #199 ) ;
#310 = DIRECTION ( 'NONE',  ( -1.000000000000000000, -0.000000000000000000, -0.000000000000000000 ) ) ;
#311 = DIRECTION ( 'NONE',  ( -1.000000000000000000, -0.000000000000000000, -0.000000000000000000 ) ) ;
#312 = PRODUCT ( 'Q-DWWP-R41-20-1064-SH-M', 'Q-DWWP-R41-20-1064-SH-M', '', ( #321 ) ) ;
#313 = ADVANCED_FACE ( 'NONE', ( #242 ), #178, .F. ) ;
#314 = AXIS2_PLACEMENT_3D ( 'NONE', #60, #191, #210 ) ;
#315 =( NAMED_UNIT ( * ) SI_UNIT ( $, .STERADIAN. ) SOLID_ANGLE_UNIT ( ) );
#316 = EDGE_CURVE ( 'NONE', #134, #187, #212, .T. ) ;
#317 = FACE_OUTER_BOUND ( 'NONE', #9, .T. ) ;
#318 = CALENDAR_DATE ( 2020, 22, 12 ) ;
#319 = CYLINDRICAL_SURFACE ( 'NONE', #198, 3.000000000000000000 ) ;
#320 = VECTOR ( 'NONE', #57, 1000.000000000000000 ) ;
#321 = MECHANICAL_CONTEXT ( 'NONE', #195, 'mechanical' ) ;
#322 = ORIENTED_EDGE ( 'NONE', *, *, #148, .F. ) ;
#323 = EDGE_LOOP ( 'NONE', ( #264, #322 ) ) ;
#324 = EDGE_LOOP ( 'NONE', ( #67, #305 ) ) ;
#325 = CARTESIAN_POINT ( 'NONE',  ( 0.5000000000000004441, 0.000000000000000000, 0.000000000000000000 ) ) ;
#326 = CARTESIAN_POINT ( 'NONE',  ( 1.500000000000000222, 5.000000000000000000, 0.000000000000000000 ) ) ;
#327 = DIRECTION ( 'NONE',  ( 0.000000000000000000, 0.000000000000000000, -1.000000000000000000 ) ) ;
#328 = EDGE_CURVE ( 'NONE', #211, #36, #294, .T. ) ;
#329 = DIRECTION ( 'NONE',  ( 0.000000000000000000, 0.000000000000000000, 1.000000000000000000 ) ) ;
#330 = LINE ( 'NONE', #203, #181 ) ;
#331 = DIRECTION ( 'NONE',  ( -1.000000000000000000, -0.000000000000000000, -0.000000000000000000 ) ) ;
#332 = AXIS2_PLACEMENT_3D ( 'NONE', #228, #172, #53 ) ;
#333 = ADVANCED_FACE ( 'NONE', ( #72 ), #170, .F. ) ;
#334 = PERSON_AND_ORGANIZATION_ROLE ( 'classification_officer' ) ;
#335 = AXIS2_PLACEMENT_3D ( 'NONE', #258, #119, #278 ) ;
ENDSEC;
END-ISO-10303-21;
